ISO-10303-21;
HEADER;
FILE_DESCRIPTION( ( '' ), ' ' );
FILE_NAME( '/vol/tmp/translate-6174773965431149434/5d6f249eaa658c15b0579d38.step', '2019-09-04T02:42:38', ( '' ), ( '' ), ' ', ' ', ' ' );
FILE_SCHEMA( ( 'AUTOMOTIVE_DESIGN { 1 0 10303 214 1 1 1 1 }' ) );
ENDSEC;
DATA;
#1 = MECHANICAL_DESIGN_GEOMETRIC_PRESENTATION_REPRESENTATION( ' ', ( #10, #11, #12 ), #6 );
#2 = PRODUCT_DEFINITION_CONTEXT( '', #13, 'design' );
#3 = APPLICATION_PROTOCOL_DEFINITION( 'international standard', 'automotive_design', 2001, #13 );
#4 = PRODUCT_CATEGORY_RELATIONSHIP( 'NONE', 'NONE', #14, #15 );
#5 = SHAPE_DEFINITION_REPRESENTATION( #16, #17 );
#6 =  ( GEOMETRIC_REPRESENTATION_CONTEXT( 3 )GLOBAL_UNCERTAINTY_ASSIGNED_CONTEXT( ( #20 ) )GLOBAL_UNIT_ASSIGNED_CONTEXT( ( #22, #23, #24 ) )REPRESENTATION_CONTEXT( 'NONE', 'WORKSPACE' ) );
#10 = STYLED_ITEM( '', ( #26 ), #27 );
#11 = STYLED_ITEM( '', ( #28 ), #29 );
#12 = STYLED_ITEM( '', ( #30 ), #31 );
#13 = APPLICATION_CONTEXT( 'core data for automotive mechanical design processes' );
#14 = PRODUCT_CATEGORY( 'part', 'NONE' );
#15 = PRODUCT_RELATED_PRODUCT_CATEGORY( 'detail', ' ', ( #32 ) );
#16 = PRODUCT_DEFINITION_SHAPE( 'NONE', 'NONE', #33 );
#17 = ADVANCED_BREP_SHAPE_REPRESENTATION( 'Shaft', ( #34, #35 ), #6 );
#20 = UNCERTAINTY_MEASURE_WITH_UNIT( LENGTH_MEASURE( 1.00000000000000E-06 ), #22, '', '' );
#22 =  ( CONVERSION_BASED_UNIT( 'METRE', #38 )LENGTH_UNIT(  )NAMED_UNIT( #41 ) );
#23 =  ( NAMED_UNIT( #43 )PLANE_ANGLE_UNIT(  )SI_UNIT( $, .RADIAN. ) );
#24 =  ( NAMED_UNIT( #43 )SI_UNIT( $, .STERADIAN. )SOLID_ANGLE_UNIT(  ) );
#26 = PRESENTATION_STYLE_ASSIGNMENT( ( #49 ) );
#27 = ADVANCED_FACE( '', ( #50 ), #51, .T. );
#28 = PRESENTATION_STYLE_ASSIGNMENT( ( #52 ) );
#29 = ADVANCED_FACE( '', ( #53 ), #54, .F. );
#30 = PRESENTATION_STYLE_ASSIGNMENT( ( #55 ) );
#31 = ADVANCED_FACE( '', ( #56, #57 ), #58, .T. );
#32 = PRODUCT( 'Shaft', 'Shaft', 'PART-Shaft-DESC', ( #59 ) );
#33 = PRODUCT_DEFINITION( 'NONE', 'NONE', #60, #2 );
#34 = MANIFOLD_SOLID_BREP( 'Shaft', #61 );
#35 = AXIS2_PLACEMENT_3D( '', #62, #63, #64 );
#38 = LENGTH_MEASURE_WITH_UNIT( LENGTH_MEASURE( 1.00000000000000 ), #65 );
#41 = DIMENSIONAL_EXPONENTS( 1.00000000000000, 0.00000000000000, 0.00000000000000, 0.00000000000000, 0.00000000000000, 0.00000000000000, 0.00000000000000 );
#43 = DIMENSIONAL_EXPONENTS( 0.00000000000000, 0.00000000000000, 0.00000000000000, 0.00000000000000, 0.00000000000000, 0.00000000000000, 0.00000000000000 );
#49 = SURFACE_STYLE_USAGE( .BOTH., #66 );
#50 = FACE_OUTER_BOUND( '', #67, .T. );
#51 = PLANE( '', #68 );
#52 = SURFACE_STYLE_USAGE( .BOTH., #69 );
#53 = FACE_OUTER_BOUND( '', #70, .T. );
#54 = PLANE( '', #71 );
#55 = SURFACE_STYLE_USAGE( .BOTH., #72 );
#56 = FACE_OUTER_BOUND( '', #73, .T. );
#57 = FACE_OUTER_BOUND( '', #74, .T. );
#58 = CYLINDRICAL_SURFACE( '', #75, 0.00270000000000000 );
#59 = PRODUCT_CONTEXT( '', #13, 'mechanical' );
#60 = PRODUCT_DEFINITION_FORMATION_WITH_SPECIFIED_SOURCE( ' ', 'NONE', #32, .NOT_KNOWN. );
#61 = CLOSED_SHELL( '', ( #31, #27, #29 ) );
#62 = CARTESIAN_POINT( '', ( 0.00000000000000, 0.00000000000000, 0.00000000000000 ) );
#63 = DIRECTION( '', ( 0.00000000000000, 0.00000000000000, 1.00000000000000 ) );
#64 = DIRECTION( '', ( 1.00000000000000, 0.00000000000000, 0.00000000000000 ) );
#65 =  ( LENGTH_UNIT(  )NAMED_UNIT( #41 )SI_UNIT( $, .METRE. ) );
#66 = SURFACE_SIDE_STYLE( '', ( #77 ) );
#67 = EDGE_LOOP( '', ( #78 ) );
#68 = AXIS2_PLACEMENT_3D( '', #79, #80, #81 );
#69 = SURFACE_SIDE_STYLE( '', ( #82 ) );
#70 = EDGE_LOOP( '', ( #83 ) );
#71 = AXIS2_PLACEMENT_3D( '', #84, #85, #86 );
#72 = SURFACE_SIDE_STYLE( '', ( #87 ) );
#73 = EDGE_LOOP( '', ( #88 ) );
#74 = EDGE_LOOP( '', ( #89 ) );
#75 = AXIS2_PLACEMENT_3D( '', #90, #91, #92 );
#77 = SURFACE_STYLE_FILL_AREA( #93 );
#78 = ORIENTED_EDGE( '', *, *, #94, .T. );
#79 = CARTESIAN_POINT( '', ( -0.258175000000000, 0.265500000000000, 0.188241019845004 ) );
#80 = DIRECTION( '', ( -1.00000000000000, -0.00000000000000, -1.95775935145957E-14 ) );
#81 = DIRECTION( '', ( 0.00000000000000, -1.00000000000000, 0.00000000000000 ) );
#82 = SURFACE_STYLE_FILL_AREA( #95 );
#83 = ORIENTED_EDGE( '', *, *, #96, .T. );
#84 = CARTESIAN_POINT( '', ( 0.210699999999988, 0.284999998793014, 0.196745930829805 ) );
#85 = DIRECTION( '', ( -1.00000000000000, -8.88178419700128E-16, 1.96271570424835E-16 ) );
#86 = DIRECTION( '', ( -1.96271570424835E-16, 5.91645678915751E-30, -1.00000000000000 ) );
#87 = SURFACE_STYLE_FILL_AREA( #97 );
#88 = ORIENTED_EDGE( '', *, *, #96, .F. );
#89 = ORIENTED_EDGE( '', *, *, #94, .F. );
#90 = CARTESIAN_POINT( '', ( 0.210701999999988, 0.284999998793014, 0.196745930829804 ) );
#91 = DIRECTION( '', ( 1.00000000000000, -0.00000000000000, 1.95775935145957E-14 ) );
#92 = DIRECTION( '', ( -1.95775935145957E-14, 0.00000000000000, 1.00000000000000 ) );
#93 = FILL_AREA_STYLE( '', ( #98 ) );
#94 = EDGE_CURVE( '', #99, #99, #100, .T. );
#95 = FILL_AREA_STYLE( '', ( #101 ) );
#96 = EDGE_CURVE( '', #102, #102, #103, .F. );
#97 = FILL_AREA_STYLE( '', ( #104 ) );
#98 = FILL_AREA_STYLE_COLOUR( '', #105 );
#99 = VERTEX_POINT( '', #106 );
#100 = CIRCLE( '', #107, 0.00270000000000000 );
#101 = FILL_AREA_STYLE_COLOUR( '', #108 );
#102 = VERTEX_POINT( '', #109 );
#103 = CIRCLE( '', #110, 0.00270000000000000 );
#104 = FILL_AREA_STYLE_COLOUR( '', #111 );
#105 = COLOUR_RGB( '', 0.615686297400000, 0.811764717100000, 0.929411768900000 );
#106 = CARTESIAN_POINT( '', ( -0.258175000000000, 0.284999998793014, 0.199445930829796 ) );
#107 = AXIS2_PLACEMENT_3D( '', #112, #113, #114 );
#108 = COLOUR_RGB( '', 0.615686297400000, 0.811764717100000, 0.929411768900000 );
#109 = CARTESIAN_POINT( '', ( 0.210699999999988, 0.282299998793014, 0.196745930829804 ) );
#110 = AXIS2_PLACEMENT_3D( '', #115, #116, #117 );
#111 = COLOUR_RGB( '', 0.615686297400000, 0.811764717100000, 0.929411768900000 );
#112 = CARTESIAN_POINT( '', ( -0.258175000000000, 0.284999998793014, 0.196745930829795 ) );
#113 = DIRECTION( '', ( -1.00000000000000, 0.00000000000000, -1.95775935145957E-14 ) );
#114 = DIRECTION( '', ( -1.95775935145957E-14, 0.00000000000000, 1.00000000000000 ) );
#115 = CARTESIAN_POINT( '', ( 0.210699999999988, 0.284999998793014, 0.196745930829804 ) );
#116 = DIRECTION( '', ( -1.00000000000000, -8.88178419700128E-16, 1.96271570424810E-16 ) );
#117 = DIRECTION( '', ( 8.88178419700128E-16, -1.00000000000000, 7.74154843572336E-47 ) );
ENDSEC;
END-ISO-10303-21;
